-----------------------------------------------------------------------------
			     Midnight To Midnight - Chevelle
-----------------------------------------------------------------------------

Music by Chevelle
Tabbed by Chevelle Online
Album: Vena Sera  
Song: Midnight to Midnight 
Tuning: Drop A#: A# F A# D# G C

Intro

C |---------------------------------------------------------------------------------------|
G |---------------------------------------------------------------------------------------|
D#|---------------------------------------------------------------------------------------|
A#|---------------------------------------------------------------------------------------|
F |---------------------------------------------------------------------------------------|
A#|--12-10-10-0---7-0--x-10-0--x-7-0--12-12-12-10-0--7-0--x-10-0--x-7-0--12-12-12-10-0----|

C |--------------------------------------------------------------------------|
G |--------------------------------------------------------------------------|
D#|--------------------------------------------------------------------------|
A#|---------------------------------------------------------12-10-10-10-0----|
F |---------------------------------------------------------12-10-10-10-0----|
A#|--7-0--x-10-0--x-7-0--12-10-10-10-0--7-0--x-10-0--x-3-0--12-10-10-10-0----|
   PM                                                       _  _  _  _  _

C |-------------------------------------------------------------------------|
G |-------------------------------------------------------------------------|
D#|-------------------------------------------------------------------------|
A#|--7-0--0-10-0--0-7-0--12-10-10-10-0--7-0--0-10-0--0-3-012-10-10-10-0----|
F |--7-0--0-10-0--0-7-0--12-10-10-10-0--7-0--0-10-0--0-3-012-10-10-10-0----|
A#|--7-0--0-10-0--0-7-0--12-10-10-10-0--7-0--0-10-0--0-3-012-10-10-10-0----|

C |-------------------------------------------------------------------------|
G |-------------------------------------------------------------------------|
D#|-------------------------------------------------------------------------|
A#|--7-0--0-10-0--0-7-0--12-10-10-10-0--7-0--0-10-0--0-3-0--12-10-10-10-0---|
F |--7-0--0-10-0--0-7-0--12-10-10-10-0--7-0--0-10-0--0-3-0--12-10-10-10-0---|
A#|--7-0--0-10-0--0-7-0--12-10-10-10-0--7-0--0-10-0--0-3-0--12-10-10-10-0---|


Verse #1
C |----------------------------------------------------------------------------|
G |----------------------------------------------------------------------------|
D#|----------------------------------------------------------------------------|
A#|----------------------------------------------------------------------------|
F |------------------------------------------------------------------------x4--|
A#|--7-0--x-10-0--x-7-0--12-10-10-10-0--7-0--x-10-0--x-3-0--12-10-10-10-0------|

Guitar 2(Starts after guitar 1 has played though 2x)
C |----------------------------------------------------------------------------|
G |----------------------------------------------------------------------------|
D#|----------------------------------------------------------------------------|
A#|--7-0--x-10-0--x-7-0--12-10-10-10-0--7-0--x-10-0--x-3-0--12-10-10-10-0------|
F |------------------------------------------------------------------------x2--|
A#|----------------------------------------------------------------------------|


Pre-Chorus

C |-------------------------------------------------------------------------------------------------|
G |-------------------------------------------------------------------------------------------------|
D|--------------------------------------------------------------------------------------------------|
A#|--------------------------------------------------------------------------------------------10---|
F |--------------------------------------------------------------------------------------------10---|
A#|--x-101010-12-10----12----x-101010-12-10----12----x-101010-12-10----12----x-101010-12-10----10---|
   PM  _ _ _  _  _     _       _ _ _  _  _     _       _ _ _  _  _     _       _ _ _  _  _ 

Chorus

C |---------------------------------------------------------------------------------------|
G |---------------------------------------------------------------------------------------|
D#|--12-12-12-12-12-12-12-12-12-12-12-12-12-12-7-7-9-9-9-9-9-9-9-9-9-9-9-9-9-9-7-7--------|
A#|--10-10-10-10-10-10-10-10-10-10-10-10-10-10-5-5-7-7-7-7-7-7-7-7-7-7-7-7-7-7-5-5--------|
F |--10-10-10-10-10-10-10-10-10-10-10-10-10-10-5-5-7-7-7-7-7-7-7-7-7-7-7-7-7-7-5-5--------|
A#|--10-10-10-10-10-10-10-10-10-10-10-10-10-10-5-5-7-7-7-7-7-7-7-7-7-7-7-7-7-7-5-5--------|

C |---------------------------------------------------------------------------------------|
G |--------------------------------------------------------------------------101010-------|
D#|--12-12-12-12-12-12-12-12-12-12-12-12-12-12-7-7-9-9-9-9-9-9-9-9-9-9-9-9-9-9-9-9--------|
A#|--10-10-10-10-10-10-10-10-10-10-10-10-10-10-5-5-7-7-7-7-7-7-7-7-7-7-7-7-7-7-7-7--------|
F |--10-10-10-10-10-10-10-10-10-10-10-10-10-10-5-5-7-7-7-7-7-7-7-7-7-7-7-7-7-7-7-7--------|
A#|--10-10-10-10-10-10-10-10-10-10-10-10-10-10-5-5-7-7-7-7-7-7-7-7-7-7-7-7-7-7-7-7--------|

C |---------------------------------------------------------------------------------------|
G |---------------------------------------------------------------------------------------|
D#|--12-12----12-12-12----12-12-12----12-12-12-7-7-9-9---9-9-9---9-9-9---9-9-9-7-7--------|
A#|--10-10----10-10-10----10-10-10----10-10-10-5-5-7-7---7-7-7---7-7-7---7-7-7-5-5--------|
F |--10-10----10-10-10----10-10-10----10-10-10-5-5-7-7---7-7-7---7-7-7---7-7-7-5-5--------|
A#|--10-10----10-10-10----10-10-10----10-10-10-5-5-7-7---7-7-7---7-7-7---7-7-7-5-5--------|

C |---------------------------------------------------------------------------------------|
G |---------------------------------------------------------------------------------------|
D#|--12-12-12-12-12-12-12-12-12-12-12-12-12-12-7-7-9-9-9-9-9-9-9-9-9-9-9b9b9b9b9b9b-------|
A#|--10-10-10-10-10-10-10-10-10-10-10-10-10-10-5-5-7-7-7-7-7-7-7-7-7-7-7-7-7-7-7-7--------|
F |--10-10-10-10-10-10-10-10-10-10-10-10-10-10-5-5-7-7-7-7-7-7-7-7-7-7-7-7-7-7-7-7--------|
A#|--10-10-10-10-10-10-10-10-10-10-10-10-10-10-5-5-7-7-7-7-7-7-7-7-7-7-7-7-7-7-7-7--------|



C |-------------------------------------------------------------------------|
G |-------------------------------------------------------------------------|
D#|-------------------------------------------------------------------------|
A#|--7-0--0-10-0--0-7-0--12-10-10-10-0--7-0--0-10-0--0-3-012-10-10-10-0----|
F |--7-0--0-10-0--0-7-0--12-10-10-10-0--7-0--0-10-0--0-3-012-10-10-10-0----|
A#|--7-0--0-10-0--0-7-0--12-10-10-10-0--7-0--0-10-0--0-3-012-10-10-10-0----|

C |-------------------------------------------------------------------------|
G |-------------------------------------------------------------------------|
D#|-------------------------------------------------------------------------|
A#|--7-0--0-10-0--0-7-0--12-10-10-10-0--7-0--0-10-0--0-3-0--12-10-10-10-0---|
F |--7-0--0-10-0--0-7-0--12-10-10-10-0--7-0--0-10-0--0-3-0--12-10-10-10-0---|
A#|--7-0--0-10-0--0-7-0--12-10-10-10-0--7-0--0-10-0--0-3-0--12-10-10-10-0---|

Verse #2

C |----------------------------------------------------------------------------|
G |----------------------------------------------------------------------------|
D#|----------------------------------------------------------------------------|
A#|----------------------------------------------------------------------------|
F |------------------------------------------------------------------------x4--|
A#|--7-0--x-10-0--x-7-0--12-12-12-10-0--7-0--x-10-0--x-7-0--12-12-12-10-0------|

Pre-Chorus #2

Guitar 1
C |-------------------------------------------------------------------------------------------------|
G |-------------------------------------------------------------------------------------------------|
D|--------------------------------------------------------------------------------------------------|
A#|--------------------------------------------------------------------------------------------10---|
F |--------------------------------------------------------------------------------------------10---|
A#|--x-101010-12-10----12----x-101010-12-10----12----x-101010-12-10----12----x-101010-12-10----10---|
   PM  _ _ _  _  _     _       _ _ _  _  _     _       _ _ _  _  _     _       _ _ _  _  _  
Guitar 2

C |-------------------------------------------------------------------------------------------------|
G |-------------------------------------------------------------------------------------------------|
D|--------------------------------------------------------------------------------------------------|
A#|--x-101010-12-10----12----x-101010-12-10----12----x-101010-12-10----12----x-101010-12-10----10---|
F |--------------------------------------------------------------------------------------------10---|
A#|--------------------------------------------------------------------------------------------10---|
   PM  _ _ _  _  _     _       _ _ _  _  _     _       _ _ _  _  _     _       _ _ _  _  _  

Chorus #2

C |---------------------------------------------------------------------------------------|
G |---------------------------------------------------------------------------------------|
D#|--12-12-12-12-12-12-12-12-12-12-12-12-12-12-7-7-9-9-9-9-9-9-9-9-9-9-9-9-9-9-7-7--------|
A#|--10-10-10-10-10-10-10-10-10-10-10-10-10-10-5-5-7-7-7-7-7-7-7-7-7-7-7-7-7-7-5-5--------|
F |--10-10-10-10-10-10-10-10-10-10-10-10-10-10-5-5-7-7-7-7-7-7-7-7-7-7-7-7-7-7-5-5--------|
A#|--10-10-10-10-10-10-10-10-10-10-10-10-10-10-5-5-7-7-7-7-7-7-7-7-7-7-7-7-7-7-5-5--------|

C |---------------------------------------------------------------------------------------|
G |--------------------------------------------------------------------------101010-------|
D#|--12-12-12-12-12-12-12-12-12-12-12-12-12-12-7-7-9-9-9-9-9-9-9-9-9-9-9-9-9-9-9-9--------|
A#|--10-10-10-10-10-10-10-10-10-10-10-10-10-10-5-5-7-7-7-7-7-7-7-7-7-7-7-7-7-7-7-7--------|
F |--10-10-10-10-10-10-10-10-10-10-10-10-10-10-5-5-7-7-7-7-7-7-7-7-7-7-7-7-7-7-7-7--------|
A#|--10-10-10-10-10-10-10-10-10-10-10-10-10-10-5-5-7-7-7-7-7-7-7-7-7-7-7-7-7-7-7-7--------|

C |---------------------------------------------------------------------------------------|
G |---------------------------------------------------------------------------------------|
D#|--12-12----12-12-12----12-12-12----12-12-12-7-7-9-9---9-9-9---9-9-9---9-9-9-7-7--------|
A#|--10-10----10-10-10----10-10-10----10-10-10-5-5-7-7---7-7-7---7-7-7---7-7-7-5-5--------|
F |--10-10----10-10-10----10-10-10----10-10-10-5-5-7-7---7-7-7---7-7-7---7-7-7-5-5--------|
A#|--10-10----10-10-10----10-10-10----10-10-10-5-5-7-7---7-7-7---7-7-7---7-7-7-5-5--------|

C |---------------------------------------------------------------------------------------|
G |---------------------------------------------------------------------------------------|
D#|--12-12-12-12-12-12-12-12-12-12-12-12-12-12-7-7-9-9-9-9-9-9-9-9-9-9-9b9b9b9b9b9b-------|
A#|--10-10-10-10-10-10-10-10-10-10-10-10-10-10-5-5-7-7-7-7-7-7-7-7-7-7-7-7-7-7-7-7--------|
F |--10-10-10-10-10-10-10-10-10-10-10-10-10-10-5-5-7-7-7-7-7-7-7-7-7-7-7-7-7-7-7-7--------|
A#|--10-10-10-10-10-10-10-10-10-10-10-10-10-10-5-5-7-7-7-7-7-7-7-7-7-7-7-7-7-7-7-7--------|

C |------------------------|
G |------------------------|
D#|------------------------|
A#|------------------------|
F |--7-5-7-5-7-8-7-5-------|
A#|--7-5-7-5-7-8-7-5-------|
  PM _ _ _ _ _ _ _ _


Bridge

C |---------------------------------------------------------------------|
G |---------------------------------------------------------------------|
D#|------7~-----------------------------7~------------------------------|
A#|--0~--7~-------------------------6~--7~--------------------------x4--|
F |--0~--5~-5-5-5-5-5-5-5-5-7-7-8-8-6~--6~-6-6-6-6-6-6-6-6-8-8-7-7------|
A#|--0~--0~-------------------------6~--6~------------------------------|

C |----------------------------------------------------------------------|
G |----------------------------------------------------------------------|
D#|-------------------------9-9-10-10---------------------10-10-9-9------|
A#|-----------------------------------6-6-666-6---666-6-6----------------|
F |--0-0--000-0---000-0--0-----------6-6-666-6---666-6-6------------x4--|
A#|--0-0--000-0---000-0--0------------6-6-666-6---666-6-6----------------|


C |-------------------------------------------------------------------------------|
G |-------------------------------------------------------------------------------|
D#|-------------------------------------------------------------------------------|
A#|--12--12-10--10-7--7-3--3----------------12--12-10--10-7--7-3--3---------------|
F |---------------------------0-0-0-0-0-0----------------------------0-0-0-0-0-0--|
A#|---------------------------0-0-0-0-0-0----------------------------0-0-0-0-0-0--|
   PM                                                                _ _ _ _ _ _

C |-----------------------------------------------------------------------|
G |-----------------------------------------------------------------------|
D#|-----------------------------------------------------------------------|
A#|--12--12-10--10-7--7-3--3----------------12--12-10--10-7--7-3--3--0----|
F |---------------------------0-0-0-0-0-0----------------------------0----|
A#|---------------------------0-0-0-0-0-0----------------------------0----|


Chorus #3

C |---------------------------------------------------------------------------------------|
G |---------------------------------------------------------------------------------------|
D#|--12-12-12-12-12-12-12-12-12-12-12-12-12-12-7-7-9-9-9-9-9-9-9-9-9-9-9-9-9-9-7-7--------|
A#|--10-10-10-10-10-10-10-10-10-10-10-10-10-10-5-5-7-7-7-7-7-7-7-7-7-7-7-7-7-7-5-5--------|
F |--10-10-10-10-10-10-10-10-10-10-10-10-10-10-5-5-7-7-7-7-7-7-7-7-7-7-7-7-7-7-5-5--------|
A#|--10-10-10-10-10-10-10-10-10-10-10-10-10-10-5-5-7-7-7-7-7-7-7-7-7-7-7-7-7-7-5-5--------|

C |---------------------------------------------------------------------------------------|
G |--------------------------------------------------------------------------101010-------|
D#|--12-12-12-12-12-12-12-12-12-12-12-12-12-12-7-7-9-9-9-9-9-9-9-9-9-9-9-9-9-9-9-9--------|
A#|--10-10-10-10-10-10-10-10-10-10-10-10-10-10-5-5-7-7-7-7-7-7-7-7-7-7-7-7-7-7-7-7--------|
F |--10-10-10-10-10-10-10-10-10-10-10-10-10-10-5-5-7-7-7-7-7-7-7-7-7-7-7-7-7-7-7-7--------|
A#|--10-10-10-10-10-10-10-10-10-10-10-10-10-10-5-5-7-7-7-7-7-7-7-7-7-7-7-7-7-7-7-7--------|

C |---------------------------------------------------------------------------------------|
G |---------------------------------------------------------------------------------------|
D#|--12-12----12-12-12----12-12-12----12-12-12-7-7-9-9---9-9-9---9-9-9---9-9-9-7-7--------|
A#|--10-10----10-10-10----10-10-10----10-10-10-5-5-7-7---7-7-7---7-7-7---7-7-7-5-5--------|
F |--10-10----10-10-10----10-10-10----10-10-10-5-5-7-7---7-7-7---7-7-7---7-7-7-5-5--------|
A#|--10-10----10-10-10----10-10-10----10-10-10-5-5-7-7---7-7-7---7-7-7---7-7-7-5-5--------|

C |---------------------------------------------------------------------------------------|
G |---------------------------------------------------------------------------------------|
D#|--12-12-12-12-12-12-12-12-12-12-12-12-12-12-7-7-9-9-9-9-9-9-9-9-9-9-9b9b9b9b9b9b-------|
A#|--10-10-10-10-10-10-10-10-10-10-10-10-10-10-5-5-7-7-7-7-7-7-7-7-7-7-7-7-7-7-7-7--------|
F |--10-10-10-10-10-10-10-10-10-10-10-10-10-10-5-5-7-7-7-7-7-7-7-7-7-7-7-7-7-7-7-7--------|
A#|--10-10-10-10-10-10-10-10-10-10-10-10-10-10-5-5-7-7-7-7-7-7-7-7-7-7-7-7-7-7-7-7--------|

Outro

C |-------------------------------------------------------------------------|
G |-------------------------------------------------------------------------|
D#|-------------------------------------------------------------------------|
A#|--7-0--0-10-0--0-7-0--12-10-10-10-0--7-0--0-10-0--0-3-012-10-10-10-0----|
F |--7-0--0-10-0--0-7-0--12-10-10-10-0--7-0--0-10-0--0-3-012-10-10-10-0----|
A#|--7-0--0-10-0--0-7-0--12-10-10-10-0--7-0--0-10-0--0-3-012-10-10-10-0----|

C |------------------------------------------------------------------------0~--|
G |------------------------------------------------------------------------3~--|
D#|------------------------------------------------------------------------2~--|
A#|--7-0--0-10-0--0-7-0--12-10-10-10-0--7-0--0-10-0--0-3-0--12-10-10-10-0--0~--|
F |--7-0--0-10-0--0-7-0--12-10-10-10-0--7-0--0-10-0--0-3-0--12-10-10-10-0--0~--|
A#|--7-0--0-10-0--0-7-0--12-10-10-10-0--7-0--0-10-0--0-3-0--12-10-10-10-0--0~--|
   PM                                                                   _ 
Back