-----------------------------------------------------------------------------
			     Sleep Apnea - Chevelle
-----------------------------------------------------------------------------

Music by Chevelle
Tabbed by Chevelle Online
Album: Sci-Fi Crimes  
Song: Sleep Apnea 
Tuning: Drop C#: C# G# C# F# A# D#

Intro
D#|-----------------------------------------|    |------|
A#|-----------------------------------------|    |------|
F#|-----------------------------------------|    |------|
C#|-----------------------------------------|    |------|
G#|-------------------------------------x2--|    |------|
C#|-100--0-12--0--0-10--0--0-15--0--0------|    |--10--|


D#|--------------------------------------------|    |------|
A#|--------------------------------------------|    |------| 
F#|--------------------------------------------|    |------|
C#|--------------------------------------------|    |--0~--|
G#|----------------------------------------x8--|    |--0~--|
C#|-0-0-0-0-12-15-12-0-0-0-0-0-12-13-12-0------|    |--0~--|

Verse #1
D#|---------------------------------------------|    |------|
A#|---------------------------------------------|    |------|
F#|---------------------------------------------|    |------|
C#|---------------------------------------------|    |--10--|
G#|----------------------------------------x12--|    |--10--|
C#|-0-0-0-0-12-15-12-0-0-0-0-0-12-13-12-0-------|    |--10--|
   

Chorus
D#|------------------------------------------------------------------------------|    |------|
A#|------------------------------------------------------------------------------|    |------|
F#|-7-7-7-7-7-7-7-7--------------------------------------------------------------|    |------|
C#|-7-7-7-7-7-7-7-7-8-8-8-8-8-8-8-8-3-3-3-3-3-3-3-3-10-10-10-10-10-10-10-10------|    |--0~--|
G#|-5-5-5-5-5-5-5-5-8-8-8-8-8-8-8-8-3-3-3-3-3-3-3-3-10-10-10-10-10-10-10-10--x2--|    |--0~--|
C#|-----------------8-8-8-8-8-8-8-8-3-3-3-3-3-3-3-3-10-10-10-10-10-10-10-10------|    |--0~--|


Verse #2
D#|---------------------------------------------|
A#|---------------------------------------------|
F#|---------------------------------------------|
C#|---------------------------------------------|
G#|----------------------------------------x12--|
C#|-0-0-0-0-12-15-12-0-0-0-0-0-12-13-12-0-------|
   


Chorus #2
D#|------------------------------------------------------------------------------|    |------|
A#|------------------------------------------------------------------------------|    |------|
F#|-7-7-7-7-7-7-7-7--------------------------------------------------------------|    |------|
C#|-7-7-7-7-7-7-7-7-8-8-8-8-8-8-8-8-3-3-3-3-3-3-3-3-10-10-10-10-10-10-10-10------|    |--14--|
G#|-5-5-5-5-5-5-5-5-8-8-8-8-8-8-8-8-3-3-3-3-3-3-3-3-10-10-10-10-10-10-10-10--x2--|    |--14--|
C#|-----------------8-8-8-8-8-8-8-8-3-3-3-3-3-3-3-3-10-10-10-10-10-10-10-10------|    |--14--|


Pre-Bridge
D#|---------------------------------------------------------------------|
A#|---------------------------------------------------------------------|
F#|---------------------------------------------------------------------|
C#|-----------------------------------------------------------5-/8------|
G#|-----------------------------------------------------------5-/8--x4--|
C#|-0-0-0-0-12-15-12-0-0-0-0-0-12-13-12-0-0-0-0-0-12-15-12-0--5-/8------|


Bridge 
D#|--------------------------------|
A#|--------------------------------|
F#|--------------------------------|
C#|-8-7-5-7-3-10-0--0-10-0--0------|
G#|-8-7-5-7-3-10-0--0-10-0--0--x3--|
C#|-8-7-5-7-3-10-0--0-10-0--0------|

D#|------------|
A#|------------|
F#|------------|
C#|-8-7-5-7-3--|
G#|-8-7-5-7-3--|
C#|-8-7-5-7-3--|


D#|-----------------------------------------|   |----------|
A#|-----------------------------------------|   |----------|
F#|-----------------------------------------|   |----------|
C#|10-0--0-12--0--0-10--0--0-15--0--0------|   |--10--0~--|
G#|10-0--0-12--0--0-10--0--0-15--0--0--x2--|   |--10--0~--|
C#|-100--0-12--0--0-10--0--0-15--0--0------|   |--10--0~--|


Chorus #3 Guitar 1
D#|------------------------------------------------------------------------------|
A#|------------------------------------------------------------------------------|
F#|-7-7-7-7-7-7-7-7--------------------------------------------------------------|
C#|-7-7-7-7-7-7-7-7-8-8-8-8-8-8-8-8-3-3-3-3-3-3-3-3-10-10-10-10-10-10-10-10------|
G#|-5-5-5-5-5-5-5-5-8-8-8-8-8-8-8-8-3-3-3-3-3-3-3-3-10-10-10-10-10-10-10-10--x3--|
C#|-----------------8-8-8-8-8-8-8-8-3-3-3-3-3-3-3-3-10-10-10-10-10-10-10-10------|


Chorus #3 Guitar 2
D#|----------------------------------------------------------------------|
A#|-------15-15--------13-------13--------------15-15-------13----13-17--|
F#|----14-------14--------14-------14--------14-------14-------14--------|
C#|-12-------------12--------12-------12--12-------------12--------------|
G#|----------------------------------------------------------------------|
C#|----------------------------------------------------------------------|


D#|-------------------------------------------------------------------------|
A#|-------15-15--------13-------13--------------15-15-------13----13-17-18--|
F#|----14-------14--------14-------14--------14-------14-------14-----------|
C#|-12-------------12--------12-------12--12-------------12-----------------|
G#|-------------------------------------------------------------------------|
C#|-------------------------------------------------------------------------|


D#|------------------------------------------------------------------15~-|
A#|-------15-15--------13-------13--------------15-15-------13----13-----|
F#|----14-------14--------14-------14--------14-------14-------14--------|
C#|-12-------------12--------12-------12--12-------------12--------------|
G#|----------------------------------------------------------------------|
C#|----------------------------------------------------------------------|



Outro
D#|--------------------------------------------------------------------|   |-----|
A#|--------------------------------------------------------------------|   |-----|
F#|--------------------------------------------------------------------|   |-----|
C#|----------------------------------------------------------5-/8------|   |--0--|
G#|----------------------------------------------------------5-/8--x4--|   |--0--|
C#|-0-0-0-0-12-15-12-0-0-0-0-0-12-13-12-0-0-0-0-0-12-15-12-0-5-/8------|   |--0--|

Back