-----------------------------------------------------------------------------
			     This Circus - Chevelle
-----------------------------------------------------------------------------

Music by Chevelle
Tabbed by Chevelle Online
Album: Sci-Fi Crimes  
Song: This Circus 
Tuning: Drop C#: C# G# C# F# A# D#

Verse #1

D#|-------------------------------------------------------------------------------------------------------------------------|
A#|-------------------------------------------------------------------------------------------------------------------------|
F#|-------------------------------------------------------------------------------------------------------------------------|
C#|-7-7-7-7-7---7-7-7-7\5-5-5-5/9-9-9-9-9---9-9-9-9/10\9-9-9\7-7-7-7-7---7-7-7-7\5-5-5-5/9-9-9-9-9---9-9-9-9\5-5-5-5--------|
G#|-5-5-5-5-5---5-5-5-5\3-3-3-3/7-7-7-7-7---7-7-7-7/8-\7-7-7\5-5-5-5-5---5-5-5-5\3-3-3-3/7-7-7-7-7---7-7-7-7\3-3-3-3--------|
C#|---------------------------------------------------------------------------------------------------------------------x2--|


D#|------------------------------------------------------------------------------------------------------------------|
A#|------------------------------------------------------------------------------------------------------------------|
F#|-7-7-7-7-7---7-7-7-7\5-5-5-5/9-9-9-9-9---9-9-9-9/10\9-9-9\7-7-7-7-7---7-7-7-7\5-5-5-5/9-9-9-9-9---9-9-9-9\5-5-5-5-|
C#|-x-x-x-x-x---x-x-x-x-x-x-x-x-x-x-x-x-x---x-x-x-x-x--x-x-x-x-x-x-x-x---x-x-x-x-x-x-x-x-x-x-x-x-x---x-x-x-x-x-x-x-x-|
G#|-5-5-5-5-5---5-5-5-5\3-3-3-3/7-7-7-7-7---7-7-7-7/8-\7-7-7\5-5-5-5-5---5-5-5-5\3-3-3-3/7-7-7-7-7---7-7-7-7\3-3-3-3-|
C#|------------------------------------------------------------------------------------------------------------------|


Pre-Chorus #1

D#|------------------------------------------------------------------------------------------------------------|
A#|------------------------------------------------------------------------------------------------------------|
F#|------------------------------------------------------------------------------------------------------------|
C#|------0-0--0-0----0-0--0--10-10--10-10---10-10--8--12-12--12-0---0-0-0-0----10-10--10-10---10-10--8---------|
G#|------0-0--0-0----0-0--0--10-10--10-10---10-10--8--12-12--12-0---0-0-0-0----10-10--10-10---10-10--8---------|
C#|------0-0--0-0----0-0--0--10-10--10-10---10-10--8--12-12--12-0---0-0-0-0----10-10--10-10---10-10--8----x2---|
Light PM _ _  _ _    _ _  _  _  _   _  _    _  _   _  _  _   _  _   _ _ _ _    _  _   _  _    _  _   _


Chorus #1

Guitar 1:
D#|------------------------------------------------------------|
A#|------------------------------------------------------------|
F#|------10---14-----------------------------------------------|
C#|-0----0----0----0-----10---10---10-10--8-8-8-8--8-8---------|
G#|-0----8----12---0-----10---10---10-10--8-8-8-8--8-8---------|
C#|-0----0----0----0-----10---10---10-10--8-8-8-8--8-8---------|
				
Guitar 2:
D#|------------------------------------------------------------|
A#|------------------------------------------------------------|
F#|-10t------------------9t---------------7t-------------------|
C#|-x--------------------x----------------x--------------------|
G#|-8t-------------------7t---------------5t-------------------|
C#|------------------------------------------------------------|

Guitar 1:
D#|------------------------------------------------------------|
A#|------------------------------------------------------------|
F#|-7----10---14---17------------------------------------------|
C#|-0----0----0----0-----10---10---10-10--10---10---10---------|
G#|-5----8----12---15----10---10---10-10--10---10---10---------|
C#|-0----0----0----0-----10---10---10-10--10---10---10---------|

Guitar 2:
D#|------------------------------------------------------------|
A#|-10t-------13t--------11t--------------10-------------------|
F#|-x---------x----------x----------------x--------------------|
C#|-7t--------10t--------8t---------------7--------------------|
G#|------------------------------------------------------------|
C#|------------------------------------------------------------|


Verse #2

D#|-------------------------------------------------------------------------------------------------------------------------|
A#|-------------------------------------------------------------------------------------------------------------------------|
F#|-------------------------------------------------------------------------------------------------------------------------|
C#|-7-7-7-7-7---7-7-7-7\5-5-5-5/9-9-9-9-9---9-9-9-9/10\9-9-9\7-7-7-7-7---7-7-7-7\5-5-5-5/9-9-9-9-9---9-9-9-9\5-5-5-5--------|
G#|-5-5-5-5-5---5-5-5-5\3-3-3-3/7-7-7-7-7---7-7-7-7/8-\7-7-7\5-5-5-5-5---5-5-5-5\3-3-3-3/7-7-7-7-7---7-7-7-7\3-3-3-3--------|
C#|---------------------------------------------------------------------------------------------------------------------x2--|


D#|------------------------------------------------------------------------------------------------------------------|
A#|------------------------------------------------------------------------------------------------------------------|
F#|-7-7-7-7-7---7-7-7-7\5-5-5-5/9-9-9-9-9---9-9-9-9/10\9-9-9\7-7-7-7-7---7-7-7-7\5-5-5-5/9-9-9-9-9---9-9-9-9\5-5-5-5-|
C#|-x-x-x-x-x---x-x-x-x-x-x-x-x-x-x-x-x-x---x-x-x-x-x--x-x-x-x-x-x-x-x---x-x-x-x-x-x-x-x-x-x-x-x-x---x-x-x-x-x-x-x-x-|
G#|-5-5-5-5-5---5-5-5-5\3-3-3-3/7-7-7-7-7---7-7-7-7/8-\7-7-7\5-5-5-5-5---5-5-5-5\3-3-3-3/7-7-7-7-7---7-7-7-7\3-3-3-3-|
C#|------------------------------------------------------------------------------------------------------------------|


Gutar 2
Guitar 2: w/tremelo and delay
D#|--------------------------------------------------------------------------------------------------------12~-------|
A#|---------13------------13------------13------------13-------------13---------------13------------13---------------|
F#|--14------------14------------14------------14-------------14---------------14------------14----------------------|
C#|------------------------------------------------------------------------------------------------------------------|
G#|------------------------------------------------------------------------------------------------------------------|
C#|------------------------------------------------------------------------------------------------------------------|


Chorus #2(x2)

Guitar 1:
D#|------------------------------------------------------------|
A#|------------------------------------------------------------|
F#|------10---14-----------------------------------------------|
C#|-0----0----0----0-----10---10---10-10--8-8-8-8--8-8---------|
G#|-0----8----12---0-----10---10---10-10--8-8-8-8--8-8---------|
C#|-0----0----0----0-----10---10---10-10--8-8-8-8--8-8---------|
				
Guitar 2:
D#|------------------------------------------------------------|
A#|------------------------------------------------------------|
F#|-10t------------------9t---------------7t-------------------|
C#|-x--------------------x----------------x--------------------|
G#|-8t-------------------7t---------------5t-------------------|
C#|------------------------------------------------------------|  
                                                              
Guitar 1:
D#|------------------------------------------------------------|
A#|------------------------------------------------------------|
F#|-7----10---14---17------------------------------------------|
C#|-0----0----0----0-----10---10---10-10--8-8-8-8--8-8---------|
G#|-5----8----12---15----10---10---10-10--8-8-8-8--8-8---------|
C#|-0----0----0----0-----10---10---10-10--8-8-8-8--8-8---------|

Guitar 2:
D#|------------------------------------------------------------|
A#|-10t-------13t--------11t--------------10-------------------|
F#|-x---------x----------x----------------x--------------------|
C#|-7t--------10t--------8t---------------7--------------------|
G#|------------------------------------------------------------|
C#|------------------------------------------------------------|


Pre-Bridge

D#|--------------------------------------------------|
A#|--------------------------------------------------|
F#|--------------------------------------------------|
C#|-0-0--0-0--0-0--0-0--0-0--0-0--0-0--0-0--0-0--0-0-|
G#|-0-0--0-0--0-0--0-0--0-0--0-0--0-0--0-0--0-0--0-0-|
C#|-0-0--0-0--0-0--0-0--0-0--0-0--0-0--0-0--0-0--0-0-|


Bridge

D#|-------------------------------------------------------------------------------|
A#|-------------------------------------------------------------------------------|
F#|-------------------------------------------------------------------------------|
C#|-0-10-12-15-12--12--12\10-0-0--12\10-0-0-0----7\3-0-10-8--8--8p7--8-8--3/10---|
G#|-0-10-12-15-12--12---12\10-0-0--12\10-0-0-0----7\3-0-10-8--8--8p7--8-8--3/10---| 
C#|-0-10-12-15-12--12---12\10-0-0--12\10-0-0-0----7\3-0-10-8--8--8p7--8-8--3/10---|


D#|------------------------------------------------------------------------------------|
A#|------------------------------------------------------------------------------------|
F#|------------------------------------------------------------------------------------|
C#|-0-10-12-15-12--12--12\10-0-0--12\10-0--0-3-0--7\3-0-10-8--8--8p7--8-8--3/10-------|
G#|-0-10-12-15-12--12---12\10-0-0--12\10-0--0-3-0--7\3-0-10-8--8--8p7--8-8--3/10-------| 
C#|-0-10-12-15-12--12---12\10-0-0--12\10-0--0-3-0--7\3-0-10-8--8--8p7--8-8--3/10---x2--|
		

D#|--------------------------------------------------------------------------------------------------|
A#|--------------------------------------------------------------------------------------------------|
F#|--------------------------------------------------------------------------------------------------|
C#|-0-10-12-15-12--12--12\10-0-0--12\10-0--0-3-0--7\3-0-10-8--8--8p7--8-8--10-10-10-10-10-10-10-10--|
G#|-0-10-12-15-12--12---12\10-0-0--12\10-0--0-3-0--7\3-0-10-8--8--8p7--8-8--10-10-10-10-10-10-10-10--| 
C#|-0-10-12-15-12--12---12\10-0-0--12\10-0--0-3-0--7\3-0-10-8--8--8p7--8-8--10-10-10-10-10-10-10-10--|


Pre-Chorus #3

D#|------------------------------------------------------------------------------------------------------------|
A#|------------------------------------------------------------------------------------------------------------|
F#|------------------------------------------------------------------------------------------------------------|
C#|------0-0--0-0----0-0--0--10-10--10-10---10-10--8--12-12--12-0---0-0-0-0----10-10--10-10---10-10--8---------|
G#|------0-0--0-0----0-0--0--10-10--10-10---10-10--8--12-12--12-0---0-0-0-0----10-10--10-10---10-10--8---------|
C#|------0-0--0-0----0-0--0--10-10--10-10---10-10--8--12-12--12-0---0-0-0-0----10-10--10-10---10-10--8--x2-----|
Light PM _ _  _ _    _ _  _  _  _   _  _    _  _   _  _  _   _  _   _ _ _ _    _  _   _  _    _  _   _


Chorus #3(x2)

Guitar 1:
D#|------------------------------------------------------------|
A#|------------------------------------------------------------|
F#|------10---14-----------------------------------------------|
C#|-0----0----0----0-----10---10---10-10--8-8-8-8--8-8---------|
G#|-0----8----12---0-----10---10---10-10--8-8-8-8--8-8---------|
C#|-0----0----0----0-----10---10---10-10--8-8-8-8--8-8---------|
				
Guitar 2:
D#|------------------------------------------------------------|
A#|------------------------------------------------------------|
F#|-10t------------------9t---------------7t-------------------|
C#|-x--------------------x----------------x--------------------|
G#|-8t-------------------7t---------------5t-------------------|
C#|------------------------------------------------------------|  
                                                              
Guitar 1:
D#|------------------------------------------------------------|
A#|------------------------------------------------------------|
F#|-7----10---14---17------------------------------------------|
C#|-0----0----0----0-----10---10---10-10--8-8-8-8--8-8---------|
G#|-5----8----12---15----10---10---10-10--8-8-8-8--8-8---------|
C#|-0----0----0----0-----10---10---10-10--8-8-8-8--8-8---------|

Guitar 2:
D#|------------------------------------------------------------|
A#|-10t-------13t--------11t--------------10-------------------|
F#|-x---------x----------x----------------x--------------------|
C#|-7t--------10t--------8t---------------7--------------------|
G#|------------------------------------------------------------|
C#|------------------------------------------------------------|


Outro

D#|------------------------------------------------------------------------------------------------------------------------|
A#|------------------------------------------------------------------------------------------------------------------------|
F#|------------------------------------------------------------------------------------------------------------------------|
C#|-7-7-7-7-7---7-7-7-7\5-5-5-5/9-9-9-9-9---9-9-9-9/10\9-9-9\7-7-7-7-7---7-7-7-7\5-5-5-5-----------------------------------|
G#|-5-5-5-5-5---5-5-5-5\3-3-3-3/7-7-7-7-7---7-7-7-7/8-\7-7-7\5-5-5-5-5---5-5-5-5\3-3-3-3/0-0-0-0-0-------------------------|
C#|--------------------------------------------------------------------------------------0-0-0-0-0---0--0-0-0-0--------x2--|
   PM                                                                                                _  _ _ _ _

Guitar 1:
D#|-------------------------------------------------------------------------------------------------------------|
A#|-------------------------------------------------------------------------------------------------------------|
F#|-------------------------------------------------------------------------------------------------------------|
C#|-7-7-7-7-7---7-7-7-7\5-5-5-5/9-9-9-9-9---9-9-9-9/10\9-9-9\7-7-7-7-7---7-7-7-7\5-5-5-5------------------------|
G#|-5-5-5-5-5---5-5-5-5\3-3-3-3/7-7-7-7-7---7-7-7-7/8-\7-7-7\5-5-5-5-5---5-5-5-5\3-3-3-3/0-0-0-0-0--------------|
C#|--------------------------------------------------------------------------------------0-0-0-0-0---0--0-0-0-0-|
   PM                                                                                                _  _ _ _ _

Guitar 2: w/tremelo and delay
D#|-----------------------------------------------------------------------------------------------------------12~------|
A#|---------13------------13------------13------------13-------------13------------------13------------13--------------|
F#|--14------------14------------14------------14-------------14-----------14-----14------------14---------------------|
C#|--------------------------------------------------------------------------------------------------------------------|
G#|--------------------------------------------------------------------------------------------------------------------|
C#|--------------------------------------------------------------------------------------------------------------------|

(Begins to fade out)
D#|----------------------------------------------------------------------------------------------------------------------|
A#|----------------------------------------------------------------------------------------------------------------------|
F#|----------------------------------------------------------------------------------------------------------------------|
C#|-7-7-7-7-7---7-7-7-7\5-5-5-5/9-9-9-9-9---9-9-9-9/10\9-9-9\7-7-7-7-7---7-7-7-7\5-5-5-5---------------------------------|
G#|-5-5-5-5-5---5-5-5-5\3-3-3-3/7-7-7-7-7---7-7-7-7/8-\7-7-7\5-5-5-5-5---5-5-5-5\3-3-3-3/0-0-0-0-0-----------------------|
C#|--------------------------------------------------------------------------------------0-0-0-0-0---0--0-0-0-0----------|
   PM                                                                                                _  _ _ _ _

Guitar 1:
D#|-------------------------------------------------------------------------------------------------------------|
A#|-------------------------------------------------------------------------------------------------------------|
F#|-------------------------------------------------------------------------------------------------------------|
C#|-7-7-7-7-7---7-7-7-7\5-5-5-5/9-9-9-9-9---9-9-9-9/10\9-9-9\7-7-7-7-7---7-7-7-7\5-5-5-5------------------------|
G#|-5-5-5-5-5---5-5-5-5\3-3-3-3/7-7-7-7-7---7-7-7-7/8-\7-7-7\5-5-5-5-5---5-5-5-5\3-3-3-3/0-0-0-0-0--------------|
C#|--------------------------------------------------------------------------------------0-0-0-0-0---0--0-0-0-0-|
   PM                                                                                                _  _ _ _ _

Guitar 2: w/tremelo and delay
D#|-----------------------------------------------------------------------------------------------------------12~------|
A#|---------13------------13------------13------------13-------------13------------------13------------13--------------|
F#|--14------------14------------14------------14-------------14-----------14-----14------------14---------------------|
C#|--------------------------------------------------------------------------------------------------------------------|
G#|--------------------------------------------------------------------------------------------------------------------|
C#|--------------------------------------------------------------------------------------------------------------------|

Guitar 1:
D#|-------------------------------------------------------------------------------------------------------------|
A#|-------------------------------------------------------------------------------------------------------------|
F#|-------------------------------------------------------------------------------------------------------------|
C#|-7-7-7-7-7---7-7-7-7\5-5-5-5/9-9-9-9-9---9-9-9-9/10\9-9-9\7-7-7-7-7---7-7-7-7\5-5-5-5------------------------|
G#|-5-5-5-5-5---5-5-5-5\3-3-3-3/7-7-7-7-7---7-7-7-7/8-\7-7-7\5-5-5-5-5---5-5-5-5\3-3-3-3/0-0-0-0-0--------------|
C#|--------------------------------------------------------------------------------------0-0-0-0-0---0--0-0-0-0-|
   PM                                                                                                _  _ _ _ _

Guitar 2: w/tremelo and delay
Fades out
D#|-----------------------------------------------------------------------------------------------------12~----------|
A#|---------13------------13------------13------------13-------------13------------13------------13------------------|
F#|--14------------14------------14------------14-------------14------------14------------14-------------------------|
C#|------------------------------------------------------------------------------------------------------------------|
G#|------------------------------------------------------------------------------------------------------------------|
C#|------------------------------------------------------------------------------------------------------------------|

(Repeat 2x without Guitar 1)
D#|-----------------------------------------------------------------------------------------------------12~----------|
A#|---------13------------13------------13------------13-------------13------------13------------13------------------|
F#|--14------------14------------14------------14-------------14------------14------------14-------------------------|
C#|------------------------------------------------------------------------------------------------------------------|
G#|------------------------------------------------------------------------------------------------------------------|
C#|------------------------------------------------------------------------------------------------------------------|

Eerie noise-
Delay at 300ish MS and high repeat (70-85), with a couple effects layered on it.
Possibly a little feedback to keep the sustain.
D#|---------------------------------------------------------------------------|
A#|---------------------------------------------------------------------------|
F#|---------------------------------------------------------------------------|
C#|--7*-----------------------------------------------------------------------|
G#|--5*-----------------------------------------------------------------------|
C#|---------------------------------------------------------------------------|
Back